E-----------------------------------------
B-------0------0--------------------------
G-----2------2----------------------------
D-----------------------------------------
A---2------0------------------------------
E-----------------------------------------

E----------------------------------------------------
B--14—-14h10h12-12-14 12-10---------------14-12-14---
G--------------------------11--9h11-9h11-------------
D----------------------------------------------------
A----------------------------------------------------
E----------------------------------------------------

Cheeze....you know you love it......

Jason Wang 
submitted on 12/06/02 (the night before my CIM exam!!)


Текст, аккорды и табулатура для песни "Please Forgive Me", исполняет "Adams Bryan".
Используемые в песне аккорды можно найти в разделе Как брать аккорды. Аккорды для шестиструнной гитары. Другие песни можно найти на нашем сайте, воспользовавшись алфавитным указателем вверху страницы.


Слушать онлайн Please forgive me


Bryan AdamsPlease forgive me на Яндекс.Музыке


 
Ошибка в тексте? Выделите ошибку и нажмите Ctrl+Enter