----------------------------------------------------------------------------
			     HERE I AM - Bryan Adams
----------------------------------------------------------------------------
Tabbed by:DJ_Inferno2000
Email:[email protected]

super song from Spirit: Stallion of the Cimarron.
I've havent been able to tab the solo but check out the other posts. hav phun!!



Tuning: capo 1st, e B G D A E

Riff 1, Part 1
e|-----------------------------------|
B|----------11--11---8-8-------------|
G|--------8--------8-----10---8-7----|  x2 
D|--10-10-------------------------10-|
A|-----------------------------------|
E|-----------------------------------|
  
Riff 1, Part 2
e|-----------------------------------|
B|----------8-8----------------------|
G|--------8----10--------------------|  x2 
D|--10-10----------------------------|
A|-----------------------------------|
E|-----------------------------------|


Verse

        D
Here i am
        A
This is me
                  G                      D
Theres no where else on earth i'd rather be
        G
Here i am
                 D
Its just me and you
   C                              A  
Tonight we make our dreams come true

CHORUS
       Bm    G
Its a new world
       D    A
Its a new start
      Bm             G         D      A
Its alive with the beating of young hearts
       Bm   G
Its a new day
       D    A
Its a new plan
             Bm        G (single strum,let sustain till end of next line) 
I've been waiting for you
   
Here i am

Riff 1 part 1 and 2

next verse is the same as previous one

Verse 2

Here we are 
We've just begun
And after all this time our time has gone
Yeah Here we are
Still going strong 
Right here in the place where we belong

[CHORUS]

[SOLO]

[CHORUS]

fade out...


Текст, аккорды и табулатура для песни "Here I Am", исполняет "Adams Bryan".
Используемые в песне аккорды можно найти в разделе Как брать аккорды. Аккорды для шестиструнной гитары. Другие песни можно найти на нашем сайте, воспользовавшись алфавитным указателем вверху страницы.


Слушать онлайн Here I Am


Bryan AdamsHere I Am на Яндекс.Музыке


 
Ошибка в тексте? Выделите ошибку и нажмите Ctrl+Enter