Вступление:D G D G D G D G  

Intro Lead:
   D			          | G			   | D			          |
E-10----10----10----10----10----10----10----10----10----10----10----10----
B-10----10----10----10----10----10----10----10----10----10----10----10----
G----14----14----14----14----12----12----12----14----14----14----14----14-
D-------------------------------------------------------------------------
A-------------------------------------------------------------------------
E-------------------------------------------------------------------------

   G			           | D     | G     | D (Fill 1)	       | G		     |
E-10----10----10----10-------------------------------------------
B-10----10----10----10-------------------------------------------
G----12----12----12----14----------------------------------------
D----------------------------------------------------------------
A-----------------------------------------------5-7--------------
E-------------------------------------5--5--5-7--------7/10------

Don't want diamonds don't want gold
Don't want fashion baby don't wanna be cool
Don't wanna hustle just to get through
When it all comes down babe, yeah
       C	      
All I want is you 
D  G  

D		     G		       
Don't wanna argue don't wanna fight
D			     G			C  
Don't want no politics babe all through the night, no

Bridge:
A	           D  A			  D 
I told ya before  -  gonna tell ya once more
G		         D G  A	               G
For the last time baby          open up your door

Припев:
	      D   Hm  G      A           D     Hm 
All I want is you            all I want is you
A      G          A         D	   Hm       
 Not any old girl will do (not any old girl), 
G        A          D        Bm     A
 Yeah, all I want is you,    hey baby
         G 			       
If ya don't need love ya gotta be nuts      				
The heaviest metal always rusts				
You and me babe hangin' tough
       A			       G 		   
It's gotta be it's gotta be it's gotta be love or bust

D  G  

Fill 2:
   D		     | G	          |
E--------------------------
B--------------------------
G--------------------------
D--------------------------
A-----------5-7--/9-5------
E-5--5--5-7----------------


D		        G		          
Don't need a doctor, don't need a nurse   
Don't need a prescription baby, only make me feel worse
Don't need a license no, no insurance
Don't need a ticket where we're goin' baby, you got my assurance ya

(Bridge)
Припев	     
Solo: G G D D G G 

Solo:
b = bend 1 tone
br = bend 1 tone then release
pbr = pre-bend 1 tone then release

   G		       G			        D		         
E-10--10-10------10--10-10----10----------10---------
B-10b-10-10b-----10b-10-10b---10pbr-8-10--10b---10---
G----------------------------------------------------
D----------------------------------------------------
A----------------------------------------------------
E----------------------------------------------------

   D				          G				
E-10-10-10--------10-10-------------10-----10-----------------
B-10-10-10-10-10--10-10---12-10-10b----10b----10b---10pbr-8---
G----------11-11----------12-11-----------------------------9-
D-------------------------------------------------------------
A-------------------------------------------------------------
E-------------------------------------------------------------

   G					         A…
E-----10----10-----10------10-----------------
B-10b----10----10b----10b-----10b-10-8-10-----
G---------------------------------------------
D---------------------------------------------
A---------------------------------------------
E---------------------------------------------

(Bridge)
Припев:
	       D    Hm  G                            H  A 
All I want is you          all I want is you,  Hey, yeah!
	      E		    C#m   A
All I want is you (All I want is      you)
       A      H  E		    C#m   H        
All I want is you (All I want is      you)
       A          H         E		 C#m  A
Not any old girl will do (All I want is       you)
       A          H            E	  C#m  H	      A H 
No, nobody else will do (All I want is   you), yeah!


E  C#m A A B E C#m B A B -5p

Outro Lead:

   E	   C#m | A	             A   B  | E	             C#m	   | B          A B |
E----------------12-----------12---------------14/16-14-(14)b-------
B-15b---------------12-12--14-------12/14-12------------------------
G-------------------------------------------------------------------
D-------------------------------------------------------------------
A-------------------------------------------------------------------
E-------------------------------------------------------------------

  E			 C#m       | A                                   A       B    | E          C#m   |
E-------------------------------12-------12----12-----------------------
B-------12-------------------------12h14----14------14--12-12-----12/19-
G-----------------------------------------------------------------------
D-14-14----14-14-14--14--14--14-----------------------------------------
A-----------------------------------------------------------------------
E-----------------------------------------------------------------------

   B	       A        B    | E	    C#m    | A            A B | 
E------------------------------------------------
B-(19)----(19)\----------------------------------
G-----------------------------------9/11--9------
D---------------------------------9--------------
A---------------14\-7--7-7---9h11----------------
E------------------------------------------------

   E			           C#m		     | B		    A                  B        |
E-------12----14----16----17----16----14p12-14---12-14b-14br-12----14-----
B-10/12----12----12----12----12----12---------------------------14----/12-
G-------------------------------------------------------------------------
D-------------------------------------------------------------------------
A-------------------------------------------------------------------------
E-------------------------------------------------------------------------

  E					  C#m		   | A	          A                     B   |
E----16-17p16----------16-17p16----------16-17p16-17--17-17-17p16----16-----
B-17----------17----17----------17----17--------------------------19----17--
G----------------16----------------16---------------------------------------
D---------------------------------------------------------------------------
A---------------------------------------------------------------------------
E---------------------------------------------------------------------------

  E			       C#m		 | B		                  A                          B            |
E-----------19----21----19----21----19----21----19b--19-16------12---------------------
B-17-17--17----17----17----17----17----17----17------------19br----14-12------------12-
G------------------------------------------------------------------------13-11-9-13----
D--------------------------------------------------------------------------------------
A--------------------------------------------------------------------------------------
E--------------------------------------------------------------------------------------

   E		     C#m                  | A		   A                  B	 | E….
E----------------------------------------------------12-12-12-12-12-12-12-
B-12---14-12h14p12-----------------------------12-12-12-12-12-12-12-12-12-
G------------------9/11-9-11b-11pbr-9-9---/13-----------------------------
D-------------------------------------------------------------------------
A-------------------------------------------------------------------------
E-------------------------------------------------------------------------


Текст, аккорды и табулатура для песни "All I Want Is You", исполняет "Adams Bryan".
Используемые в песне аккорды можно найти в разделе Как брать аккорды. Аккорды для шестиструнной гитары. Другие песни можно найти на нашем сайте, воспользовавшись алфавитным указателем вверху страницы.


Слушать онлайн All I Want Is You


Bryan AdamsAll I Want Is You на Яндекс.Музыке


 
Ошибка в тексте? Выделите ошибку и нажмите Ctrl+Enter