Acid Bath - When the Kite String Pops
New Death Sensation

Should be right, this is how I play it & it sounds perfect.
Tuned a whole step down. (Don't really have to though, still sounds good in standard or 1/2)

The order goes as follows:
Riff1 2X, Riff2 1X, Riff3 1X, Riff1 1X, Riff3 1X, Chord, Riff1 2X, Riff2 1X,
Riff3 1X, Chord, Riff4 1X, then Riff5 played over Riff4. Listen to the song & you'll
get it. It's simple but sounds awesome. All played in ACOUSTIC.

Riff 1

D---------------------------------------------------------------------------
A---------------------------------------------------------------------------
F---------------------------------------------------------------------------
C-3-----3----3h5------5--5------5--5------5---------------------------------
G----6-------------3--------3---------3-------------------------------------
D---------------------------------------------------------------------------

Riff 2

D---------------------------------------------------------------------------
A---------------------------------------------------------------------------
F---------------------------------------------------------------------------
C-3-----3--3h6-----6--6-------6--6-----6--5---3--3h5-----5--5-----5--5---5--
G----6----------3---------3---------3-------3----------3--------3------3----
D---------------------------------------------------------------------------

Riff 3

D---------------------------------------------------------------------------
A---------------------------------------------------------------------------
F---------------------------------------------------------------------------
C-3-----3--10-----10--10-----10--10-----10--11---5--4-----4--4------4--4----
G----6-------------------------------------------------5---------5--------5-
D--------------8----------8----------8--------------------------------------

Chord

D---------------------------------------------------------------------------
A-3-----------------3-------------------------------------------------------
F----2-----------2----------------------------------------------------------
C-------0-----0-------------------------------------------------------------
G----------0----------------------------------------------------------------
D---------------------------------------------------------------------------

Riff 4,(Guitar 1)

D---------------------------------------------------------------------------
A---------------------------------------------------------------------------
F-----7---------7---------7----------7--------------------------------------
C-7------7--8-----8---7------7---8------8-----------------------------------
G---------------------------------------------------------------------------
D---------------------------------------------------------------------------

Riff 5, (Guitar 2, this is played over Guitar one)

D-------------------------------6------------------------------------6------
A-6--------6---------6-------------------5---------5--------5---------------
F----7--------7---------7---------7---------7---------7--------7--------7---
C-------7--------7---------7---------7----------7--------7--------7--------7
G---------------------------------------------------------------------------
D---------------------------------------------------------------------------


Текст, аккорды и табулатура для песни "New Death Sensation", исполняет "Acid Bath".
Используемые в песне аккорды можно найти в разделе Как брать аккорды. Аккорды для шестиструнной гитары. Другие песни можно найти на нашем сайте, воспользовавшись алфавитным указателем вверху страницы.


Слушать онлайн New Death Sensation


Acid BathNew Death Sensation на Яндекс.Музыке


 
Ошибка в тексте? Выделите ошибку и нажмите Ctrl+Enter