Sin City - AC/DC
 
 ------------
 ------------
 ------------
 ------------
 |---------2-5-0-2-------
 |-----3-5---------|-0---------------
 
 
     
 Fig 1                       end Fig 1
      E5     B5      D5    A                 
 ------------|
 ------|-3-----2---------|
 4-----|-2-----2---------|
 4-----|-0-----2---------|
 2-----|-------0----(3)--|
 |-----0-----------|----------(0)----|
            
 
 Repeat fig 1 3 times ( play notes in brackets
 only the last repeat )
 
 
 Fig 2                       end Fig 2
  E         B
 ------|-2---------------|
 4-----|-3-----2---------|
 |-----1-----4-----|-2-----2---------|
 4-----|-0-----2---------|
 2-----|-------0---------|
 |-0---0-----------0-3---|
 
 Play Fig 2 3 1/2 times
 
 Fig 3                       end Fig 3
   D
 |-2-----2---2-2---|---2---2-2---2---|
 |-3-----3---3-3---|---3---3-3---3---|
 |-2-----2---2-2---|---2---2-2---2---|
 |-0-----0---0-0---|---0---0-0---0---|
 ------------|
 ------------|
 
 1st verse:
 
 Fig 4                       end Fig 4
 
   E         B5      D5    A5
       .     .       .     .
 ------------|     
 ------------|
 ------|-2---------------|
 4-----|-0-----2---------|
 2-----|-------0---0-----|
 |-0-----------------3---|
 
 
 Repeat Fig 4
 
 
 Diamonds and dust, Home at last
 rich man first
 Lamborghinis, caviar,
 Dry martinis, Shangri-la
 
 
 Play A chord with same rhythm as in Fig 3
 
 I got a burning feeling
 deeep in side of me,
 
 Play B chord with same rhythm as in Fig 3
 
 Lit the oven,
 but I`m gonna set it free.
 
 I`m going in
 
 Chorus:
 
 Play Fig 2 7 times
 
 To sin city
 
 I`m gonna win
 In sin city
 
 Where the lights are bright
 Do the town tonight
 
 I`m gonna win 
 In sin city
 
 Hey, I`m gonna burn you baby
 
 Solo
 
 
 Ladders and snakes,
 ladders give, snakes take
 Rich man poor man,
 beggar man, thief,
 Ain`t got a hope in hell,
 That`s my belief.
 Fingers finny,
 Diamond Jim,
 Daggers ready,
 Look out, I`m coming in
 
    A
 So spin that wheel, cut that flack,
 and roll those loaded dice
 
 B
 Bring on the dancing girls
 and put the shampagne on ice.
 
 I`m going in
 
 Repeat chorus
 
 
 
 ------------|
 ------------|
 ------------|
 ------------|
 |---------2---5---|-0---2-----------|
 |-3---5-----------|---------0-------|
 
 
 | . . . . . . . . | . . . . . . . . | . . . . . . . . | . . . . . . . . |
 
 --		
 
 



Текст, аккорды и табулатура для песни "Sin City (tab)", исполняет "AC/DC".
Используемые в песне аккорды можно найти в разделе Как брать аккорды. Аккорды для шестиструнной гитары. Другие песни можно найти на нашем сайте, воспользовавшись алфавитным указателем вверху страницы.


 
Ошибка в тексте? Выделите ошибку и нажмите Ctrl+Enter