Intro:
E|----------------------|--------------|--3--------2--------3-----|
B|----------------------|--------------|--3--------3--------3-----|
G|-------------------2--|-----------2--|--0--------2--------0-----|
D|----------2--2-----2--|--2--2-----2--|--0--------0--------0-----|
A|----------0--3--4--0--|--0--3--4--0--|--2--0--0--0--0--0--2--0--|
E|----------------------|--------------|--3-----------------3-----|

E|----2-------------------|-3--------2--------3-----|-----2--------------------|
B|----3-------------------|-3--------3--------3-----|-----3--------------------|
G|----2--------2----------|-0--------2--------0-----|-----2--------2-----------|
D|----0--------0-----2--2-|-0--------0--------0-----|-----0--------0-----2--2--|
A|-0--0--0--0-----4--0--0-|-2--0--0--0--0--0--2--0--|--0--0--0--0-----4--0--0--|
E|------------------------|-3-----------------3-----|--------------------------|

gonna take it down...
E|----------3------------|-------------------|----------3----------|
B|--5-------3-------5----|----------------5--|--5-------3-------5--|
G|--5-------4-------5----|----------------5--|--5-------4-------5--|
D|--5----5--5-------5----|----------------5--|--5-------5----5--5--|
A|--3----3--5----5--3----|----------------3--|--3----5--5----3--3--|
E|----------3----3-------|-------------------|-------3--3----------|

E|----------------------|----------5-----------|-------------------|
B|----5--5------5--5----|--7-------5------7----|-------------------|
G|----5--5------5--5----|--7-------6------7----|-------------------|
D|----5--5------5--5----|--7-------7------7----|-------------------|
A|----3--3------3--3----|--5----7--7------5----|-------------------|
E|----------------------|-------5--5-----------|----------------0--|

E|-------------------------|--------------------------|
B|----8--8-----8--8-----8--|--8-----8--8-----8--8-----|
G|----7--7-----7--7-----7--|--7-----7--7-----7--7-----|
D|----6--6-----6--6-----6--|--6-----6--6-----6--6-----|
A|----7--7-----7--7-----7--|--7-----7--7-----7--7-----|
E|----------0--------0-----|-----0--------0--------0--|

E|---------------------3--|------3----3--3--3--2--|
B|---------------------3--|------3----3--3--3--3--|
G|--2----2----2--2-----0--|------0----0--0--0--2--|
D|--2----2----2--2-----0--|------0----0--0--0--0--|
A|--0----0----0--0-----2--|------2----2--2--2--0--|
E|------------------0--3--|------3----3--3--3-----|


Текст, аккорды и табулатура для песни "Shoot To Thrill (2 вариант)", исполняет "AC/DC".
Используемые в песне аккорды можно найти в разделе Как брать аккорды. Аккорды для шестиструнной гитары. Другие песни можно найти на нашем сайте, воспользовавшись алфавитным указателем вверху страницы.


 
Ошибка в тексте? Выделите ошибку и нажмите Ctrl+Enter