Intro:
E|----------------------|-------|
B|-------3----3----1----|-------|
G|--2----0----2----0----|--2--5-|
D|--2----0----0----2----|--2--5-|
A|--0--------------3----|--0--3-|
E|-------3--------------|-------|
 
E|---------------------------|--------------------------|
B|---------------------------|--------------------------|
G|---------------------------|--------------------------|
D|--7--7--7--7-7--7-7--7--7--|--7--7--7--7-7--7-7--7--7-|
A|--0--0--0--0-0--0-0--0--0--|--0--0--0--0-0--0-0--0--0-|
E|---------------------------|--------------------------|

Theme (4x):
E|---------------------------|---------------------------|
B|---------------------------|---------------------------|
G|---------------------------|---------------------------|
D|---------------------------|--9-8-7--7--7-7--7-7--7--7-|
A|--7--7--7---7-7-5-5--5--5--|--7-6-5--5--5-5--5-5--5--5-|
E|--5--5--5---5-5-3-3--3--3--|---------------------------|

Verse:                 Don't you give...            better run...
E|-----------------------|--------------------|-----------------------|-------|
B|-----------------------|--------------------|-----------------------|-------|
G|----2--------7--5------|--2--5--------------|----2--------7--5------|--2--5-|
D|----2--5---5-7--5------|--2--5--------------|----2--5---5-7--5------|--2--5-|
A|----0--5---5-5--3------|--0--3--------------|----0--5---5-5--3------|--0--3-|
E|-------3---3-----------|--------------------|-------3---3-----------|-------|

                     just like a...             so don't give...
E|-----------------------|--------------------|-----------------------|-------|
B|-----------------------|--------------------|-----------------------|-------|
G|----2--------7--5------|--2--5--------------|----2--------7--5------|--2--5-|
D|----2--5---5-7--5------|--2--5--------------|----2--5---5-7--5------|--2--5-|
A|----0--5---5-5--3------|--0--3--------------|----0--5---5-5--3------|--0--3-|
E|-------3---3-----------|--------------------|-------3---3-----------|-------|

     don't you give...         ...give me no lies              you
E|--------------------|-------|----------------------|-------------------------|
B|--------------------|-------|----------------------|-------------------------|
G|--------------------|--2--2-|----------------------|--7----7--7-7--7-7--7----|
D|--3--3--------------|--2--2-|--3--3------5--5------|--7----7--7-7--7-7--7--7-|
A|--3--3--------------|--0--0-|--3--3------5--5------|--5----5--5-5--5-5--5--5-|
E|--1--1--------------|-------|--1--1------3--3------|-------------------------|

 Chorus:
 can't stop  rock 'n'     roll              you
E|---------------------------|---------------------------|
B|---------------------------|---------------------------|
G|---------------------------|---------------------------|
D|---------------------------|--9-8-7--7--7-7--7-7--7--7-|
A|--7--7--7---7-7-5-5--5--5--|--7-6-5--5--5-5--5-5--5--5-|
E|--5--5--5---5-5-3-3--3--3--|---------------------------|

 can't stop  rock 'n'     roll                  to verse:
E|---------------------------|---------------------------|
B|---------------------------|---------------------------|
G|---------------------------|---------------------------|
D|---------------------------|--9-8-7--7--7-7--7-7--7--7-|
A|--7--7--7---7-7-5-5--5--5--|--7-6-5--5--5-5--5-5--5--5-|
E|--5--5--5---5-5-3-3--3--3--|---------------------------|

after 2nd chorus:

E|-----------------------------|---------------------------|
B|-----------------------------|---------------------------|
G|-----------------------------|---------------------------|
D|--2--2--2--2-2-2-5-5--5--5-5-|--5-7-7--7--7-7--7-7--7--7-|
A|--0--0--0--0-0-0-3-3--3--3-3-|--3-5-5--5--5-5--5-5--5--5-|
E|-----------------------------|---------------------------|

E|-----------------------------|---------------------------|
B|-----------------------------|---------------------------|
G|-----------------------------|---------------------------|
D|--2--2--2--2-2-2-5-5--5--5-5-|--5-7-7--7--7-7--7-7--7--7-|
A|--0--0--0--0-0-0-3-3--3--3-3-|--3-5-5--5--5-5--5-5--5--5-|
E|-----------------------------|---------------------------|

E|-----------------------------|---------------------------|
B|-----------------------------|---------------------------|
G|-----------------------------|---------------------------|
D|--2--2--2--2-2-2-5-5--5--5-5-|--5-7-7--7--7-7--7-7--7--7-|
A|--0--0--0--0-0-0-3-3--3--3-3-|--3-5-5--5--5-5--5-5--5--5-|
E|-----------------------------|---------------------------|

 riffs on solo:
E|-----------------------|--------------------|----------------------|-------|
B|-----------------------|--------------------|----------------------|-------|
G|----2--------7--5------|--2--5--------------|--2-------------------|--2--5-|
D|----2--5---5-7--5------|--2--5--------------|--0--3------3--5------|--2--5-|
A|----0--5---5-5--3------|--0--3--------------|--0--3------3--5------|--0--3-|
E|-------3---3-----------|--------------------|-----1------1--3------|-------|

E|----------------------|-------------|----------------------|-----------------|
B|----------------------|-------------|----------------------|-----------------|
G|--2-------------------|--2--5-------|--2-------------------|--2--5------2--5-|
D|--0--3------3--5------|--2--5-------|--0--3------3--5------|--2--5------2--5-|
A|--0--3------3--5------|--0--3-------|--0--3------3--5------|--0--3------0--3-|
E|-----1------1--3------|-------------|-----1------1--3------|-----------------|
                                                   you
E|----------------------|--------------------------|--------------------------|
B|----------------------|--------------------------|--------------------------|
G|--2-------------------|--7----7--7-7--7-7--7--7--|--7--7--7--7-7--7-7--7----|
D|--0--3------3--5------|--7----7--7-7--7-7--7--7--|--7--7--7--7-7--7-7--7--7-|
A|--0--3------3--5------|--5----5--5-5--5-5--5--5--|--5--5--5--5-5--5-5--5--5-|
E|-----1------1--3------|--------------------------|--------------------------|

 can't stop...(chorus)
E|--------------------------|
B|--------------------------|
G|--------------------------|
D|--2--2--2---2-2-----------|
A|--0--0--0---0-0-5-5--5--5-|
E|----------------3-3--3--3-|


Текст, аккорды и табулатура для песни "Cant Stop Rock N Roll", исполняет "AC/DC".
Используемые в песне аккорды можно найти в разделе Как брать аккорды. Аккорды для шестиструнной гитары. Другие песни можно найти на нашем сайте, воспользовавшись алфавитным указателем вверху страницы.


 
Ошибка в тексте? Выделите ошибку и нажмите Ctrl+Enter