Princess of the dawn (live)


                                                                          Accept
Solo guitar
Tabbed by Shendrik Evgeny

  Here entered drums
E||------------------|------------------|------------------|------------------|
B||------------------|------------------|------------------|------------------|
G||------------------|------------------|------------------|------------------|
D||------------------|------------------|------------------|------------------|
A||------------------|------------------|------------------|------------------|
E||------------------|------------------|------------------|------------------|


Guitar intro:
--------------------------|--------------------------|
--------------------------|--------------------------|
--------------------------|--------------------------|
--------------------------|--------------------------|
--------------------------|--------------------------|
--1--1--1--1--1--1--1--1--|--1--1--1--1--1--1--1--1--|

--------------------------|--------------------------|
--------------------------|--------------------------|
--------------------------|--------------------------|
--------------------------|--------------------------|
--------------------------|--------------------------|
--1--1--1--1--1--1--1--1--|--1--1--1--1--1--1--1--1--|

--------------------------|--------------------------|
--------------------------|--------------------------|
--------------------------|--------------------------|
--------------------------|--------------------------|
--------------------------|--------------------------|
--1--1--1--1--1--1--1--1--|--1--1--1--1--1--1--1--1--|

--------------------------|--------------------------|
--------------------------|--------------------------|
--------------------------|--------------------------|
--------------------------|--------------------------|
--------------------------|--------------------------|
--1--1--1--1--1--1--1--1--|--1--1--1--1--1--1--1--1--|

--------------------------|-------------------|-------------------|
--------------------------|-------------------|--3----------------|
--------------------------|-------------------|--2----------------|
--------------------------|-------------------|--0----------------|
--------------------------|-------------------|-------------------|
--1--1--1--1--1--1--1--1--|--1----------------|-------------------|

------------------|-------------------|----------------------|
------------------|----------------1--|--1-----3--3----------|
------------------|----------------0--|--0-----2--2----------|
------------------|-------------------|-----0----------------|
------------------|-------------------|----------------------|
------------------|-------------------|----------------------|


Verse 1:
--------------------------|--------------------------|
--3--------3--------------|--1--------3--------------|
--2--------3--------------|--0--------2--------------|
-----0--0-----0--0--0--0--|-----0--0-----0--0--0--0--|
--------------------------|--------------------------|
--------------------------|--------------------------|

--------------------------|--------------------------|
--3--------3-----------1--|--1-----3--3--------------|
--2--------3-----------0--|--0-----2--2--------------|
-----0--0-----0--0--0-----|-----0--------0--0--0--0--|
--------------------------|--------------------------|
--------------------------|--------------------------|

--------------------------|--------------------------|
--3--------3--------------|--1--------3--------------|
--2--------3--------------|--0--------2--------------|
-----0--0-----0--0--0--0--|-----0--0-----0--0--0--0--|
--------------------------|--------------------------|
--------------------------|--------------------------|

--------------------------|--------------------------|
--3--------3-----------1--|--1-----3--3--------------|
--2--------3-----------0--|--0-----2--2--------------|
-----0--0-----0--0--0-----|-----0--------0--0--0--0--|
--------------------------|--------------------------|
--------------------------|--------------------------|

--------------------------|--------------------------|
--3--------3--------------|--1--------3--------------|
--2--------3--------------|--0--------2--------------|
-----0--0-----0--0--0--0--|-----0--0-----0--0--0--0--|
--------------------------|--------------------------|
--------------------------|--------------------------|

--------------------------|--------------------------|
--3--------3-----------1--|--1-----3--3--------------|
--2--------3-----------0--|--0-----2--2--------------|
-----0--0-----0--0--0-----|-----0--------0--0--0--0--|
--------------------------|--------------------------|
--------------------------|--------------------------|

--------------------------|--------------------------|
--3--------3--------------|--1--------3--------------|
--2--------3--------------|--0--------2--------------|
-----0--0-----0--0--0--0--|-----0--0-----0--0--0--0--|
--------------------------|--------------------------|
--------------------------|--------------------------|


                                                      Chorus:
--------------------------|--------------------------|--------------------|
--3--------3-----------1--|--1-----3--3--------------|--------------------|
--2--------3-----------0--|--0-----2--2--------------|--------------------|
-----0--0-----0--0--0-----|-----0--------0--0--0--0--|--------------------|
--------------------------|--------------------------|---------8b---------|
--------------------------|--------------------------|--5-----------------|

--------------------|--------------------|-------------------|
--------------------|--------------------|-------------------|
--------------------|--------------------|-------------------|
--------------------|--------------------|---5---------------|
--5-----------------|---------8b---------|-------------------|
---------5----------|--5-----------------|-------------------|

-------------------|------------------|------------------|------------------|
--3----------------|------------------|------------------|------------------|
--2----------------|------------------|------------------|------------------|
--0----------------|------------------|------------------|------------------|
-------------------|------------------|------------------|------------------|
-------------------|------------------|------------------|------------------|


Verse 2:
--------------------------|--------------------------|
--3--------3--------------|--1--------3--------------|
--2--------3--------------|--0--------2--------------|
-----0--0-----0--0--0--0--|-----0--0-----0--0--0--0--|
--------------------------|--------------------------|
--------------------------|--------------------------|

--------------------------|--------------------------|
--3--------3-----------1--|--1-----3--3--------------|
--2--------3-----------0--|--0-----2--2--------------|
-----0--0-----0--0--0-----|-----0--------0--0--0--0--|
--------------------------|--------------------------|
--------------------------|--------------------------|

--------------------------|--------------------------|
--3--------3--------------|--1--------3--------------|
--2--------3--------------|--0--------2--------------|
-----0--0-----0--0--0--0--|-----0--0-----0--0--0--0--|
--------------------------|--------------------------|
--------------------------|--------------------------|

--------------------------|-------------------------|-------------------|
--3--------3-----------1--|--1-----3--3-------------|-------------------|
--2--------3-----------0--|--0-----2--2-------------|-------------------|
-----0--0-----0--0--0-----|-----0--------0--5--5----|--7----------------|
--------------------------|-----------------3--3----|--5----------------|
--------------------------|-------------------------|-------------------|

------------------|--------------------------|--------------------------|
------------------|--3--------3-----------1--|--1-----3--3--------------|
------------------|--2--------3-----------0--|--0-----2--2--------------|
------------------|-----0--0-----0--0--0-----|-----0--------0--0--0--0--|
------------------|--------------------------|--------------------------|
------------------|--------------------------|--------------------------|

--------------------------|--------------------------|
--3--------3--------------|--1--------3--------------|
--2--------3--------------|--0--------2--------------|
-----0--0-----0--0--0--0--|-----0--0-----0--0--0--0--|
--------------------------|--------------------------|
--------------------------|--------------------------|


                                                      Chorus:
--------------------------|--------------------------|--------------------|
--3--------3-----------1--|--1-----3--3--------------|--------------------|
--2--------3-----------0--|--0-----2--2--------------|--------------------|
-----0--0-----0--0--0-----|-----0--------0--0--0--0--|--------------------|
--------------------------|--------------------------|---------8b---------|
--------------------------|--------------------------|--5-----------------|

--------------------|--------------------|-------------------|
--------------------|--------------------|-------------------|
--------------------|--------------------|-------------------|
--------------------|--------------------|--5----------------|
--5-----------------|---------8b---------|-------------------|
---------5----------|--5-----------------|-------------------|

-------------------|------------------|------------------|------------------|
--3----------------|------------------|------------------|------------------|
--2----------------|------------------|------------------|------------------|
--0----------------|------------------|------------------|------------------|
-------------------|------------------|------------------|------------------|
-------------------|------------------|------------------|------------------|


Interlude:
------------------|------------------|-------------------|------------------|
------------------|------------------|-------------------|------------------|
--Here pick scrape|------------------|--7----------------|------------------|
------------------|------------------|--7----------------|------------------|
------------------|------------------|--5----------------|------------------|
------------------|------------------|-------------------|------------------|

--------------------|----------------------|--------------------|
--------------------|----------------------|--------------------|
--10----------------|--------------13------|--13----------------|
--10----------------|--------------13------|--13----------------|
--8-----------------|--------------11---11-|--11----------------|
--------------------|----------------------|--------------------|

------------------|--------------------|----------------------|
------------------|--------------------|----------------------|
------------------|--------------------|----------------------|
------------------|--------------------|----------------------|
------------------|--5------8----------|--10------12----------|
------------------|--------------------|----------------------|


                                                  Verse 3:
------------------------|------------------------|--------------------------|
------------------------|------------------------|--3--------3--------------|
------------------------|------------------------|--2--------3--------------|
------------------------|------------------------|-----0--0-----0--0--0--0--|
--12------13--------15--|--15----17--17----------|--------------------------|
------------------------|------------------------|--------------------------|

--------------------------|--------------------------|
--1--------3--------------|--3--------3-----------1--|
--0--------2--------------|--2--------3-----------0--|
-----0--0-----0--0--0--0--|-----0--0-----0--0--0-----|
--------------------------|--------------------------|
--------------------------|--------------------------|

--------------------------|--------------------------|
--1-----3--3--------------|--3--------3--------------|
--0-----2--2--------------|--2--------3--------------|
-----0--------0--0--0--0--|-----0--0-----0--0--0--0--|
--------------------------|--------------------------|
--------------------------|--------------------------|

--------------------------|--------------------------|-------------------------|
--1--------3--------------|--3--------3-----------1--|--1-----3--3-------------|
--0--------2--------------|--2--------3-----------0--|--0-----2--2-------------|
-----0--0-----0--0--0--0--|-----0--0-----0--0--0-----|-----0--------0--5--5----|
--------------------------|--------------------------|-----------------3--3----|
--------------------------|--------------------------|-------------------------|

-------------------|------------------|--------------------------|
-------------------|------------------|--3--------3-----------1--|
-------------------|------------------|--2--------3-----------0--|
--7----------------|------------------|-----0--0-----0--0--0-----|
--5----------------|------------------|--------------------------|
-------------------|------------------|--------------------------|

--------------------------|--------------------------|
--1-----3--3--------------|--3--------3--------------|
--0-----2--2--------------|--2--------3--------------|
-----0--------0--0--0--0--|-----0--0-----0--0--0--0--|
--------------------------|--------------------------|
--------------------------|--------------------------|

--------------------------|--------------------------|
--1--------3--------------|--3--------3-----------1--|
--0--------2--------------|--2--------3-----------0--|
-----0--0-----0--0--0--0--|-----0--0-----0--0--0-----|
--------------------------|--------------------------|
--------------------------|--------------------------|


                           Chorus:
--------------------------|--------------------|--------------------|
--1-----3--3--------------|--------------------|--------------------|
--0-----2--2--------------|--------------------|--------------------|
-----0--------0--0--0--0--|--------------------|--------------------|
--------------------------|---------8b---------|--5-----------------|
--------------------------|--5-----------------|---------5----------|

--------------------|-------------------|-------------------|------------------|
--------------------|-------------------|--3----------------|------------------|
--------------------|-------------------|--2----------------|------------------|
--------------------|--5----------------|--0----------------|------------------|
---------8b---------|-------------------|-------------------|------------------|
--5-----------------|-------------------|-------------------|------------------|


                   Pre-solo:
------------------|--------------------|----------------------|
------------------|----------3----3----|--3----3----3----3----|
------------------|--------------------|----------------------|
------------------|--------------------|----------------------|
------------------|--------------------|----------------------|
------------------|--------------------|----------------------|

----------------------|-------------------------|--------------------|
--3----3----3----3----|--3----3----3----3-3-3-3-|------3----3--------|
----------------------|-------------------------|--------------------|
----------------------|-------------------------|--------------------|
----------------------|-------------------------|--------------------|
----------------------|-------------------------|--------------------|

--------------------------|--------------------------|
--------------------------|--------------------------|
--------------------------|--------------------------|
--x--x--x--x--x--x--x--x--|--x--x--x--x--x--x--x--x--|
--x--x--x--x--x--x--x--x--|--x--x--x--x--x--x--x--x--|
--------------------------|--------------------------|


                                                      Solo:
--------------------------|--------------------------|---------------------|
--------------------------|--------------------------|---------------------|
--------------------------|--------------------------|---------------------|
--x--x--x--x--x--x--x--x--|--x--x--x--x--x--x--------|----------------3----|
--x--x--x--x--x--x--x--x--|--x--x--x--x--x--x--------|--5------7-----------|
--------------------------|--------------------10/---|---------------------|

---------------------|---------------------|-------------------|
---------------------|---------------------|-------------------|
---------------------|---------------------|-------------------|
--5------------------|---------------------|-------------------|
---------8------7----|---------5------7----|--5----------------|
---------------------|--8------------------|-------------------|

---------------------|---------------------|---------------------|
---------------------|---------------------|---------------------|
---------------------|---------------------|---------------------|
----------------3----|--5------------------|---------5------8----|
--5------7-----------|---------8------7----|--8------------------|
---------------------|---------------------|---------------------|

-------------------|----------------------|-----------------------|
-------------------|----------------------|-----------------------|
-------------------|--7------9------10----|--12------10------9/---|
--7----------------|----------------------|-----------------------|
-------------------|----------------------|-----------------------|
-------------------|----------------------|-----------------------|

---------------------|-------------------|----------------------|
---------------------|-------------------|----------------------|
--5------7------9----|--7----------------|--7------9------10/---|
---------------------|-------------------|----------------------|
---------------------|-------------------|----------------------|
---------------------|-------------------|----------------------|

---------------------|---------------------|----------------------|
---------------------|---------------------|------------13b-------|
--5------------------|---------------------|--5----5--------------|
---------7------8----|--7-------------5----|----------------------|
---------------------|---------8-----------|----------------------|
---------------------|---------------------|----------------------|

---------------------------|-------------------------|
---------------------------|-------------------------|
--10--9----10--------------|--10--9----10------------|
---------------12----------|---------------12--------|
-------------------12------|-------------------------|
---------------------------|-------------------------|

-------------------------------------|------------------------|
-------------------------------------|--------13b-13b---------|
--9----10----12----12b---12----10----|------------------------|
-------------------------------------|--12--------------------|
-------------------------------------|------------------------|
-------------------------------------|------------------------|

--------------------------------|-------------------------|
--------------------------------|-------------------------|
--12b-12h---10----12b-12----10--|--9h10h9-----------------|
---------------12---------------|------------10--7--------|
--------------------------------|-------------------------|
--------------------------------|-------------------------|

-------------------------------|-------------------|
-------------------------------|-------------------|
-------------------------------|-------------------|
--7----5----3----2h-3h2h0------|-------------------|
----------------------------3/-|--5----------------|
-------------------------------|-------------------|

--13h10----------------------------------|
--------11-------------------------------|
-----------10----------------------------|
--------------12-10----------------------|
--------------------12-10-7--------------|
----------------------------8-10-8-10----|

----------------------------------------|
----------------------------------10~---|
--------------------------9-10-12-------|
------------------8-10-12---------------|
----------8-10-12-----------------------|
--8-10-12-------------------------------|

-----------------------------------------------|
--11h10----10-13h11h10-------11h10-------------|
--------12-------------12-12-------12-10-12~---|
-----------------------------------------------|
-----------------------------------------------|
-----------------------------------------------|

---------------------------------------|
------------------------10-11h10-------|
----------------9-10-12----------12~---|
----------8-10-------------------------|
--8-10-12------------------------------|
---------------------------------------|

------------------------------------------------|
--15h10----10-15h10-13h10----10-15h10-13h10-----|
--------10----------------10----------------10--|
------------------------------------------------|
------------------------------------------------|
------------------------------------------------|

-----------15-17/15-13-----------17-20b---|--6h5------------6h5----------|
--15-17-18--------------17-18-20----------|------6h5------------6h5------|
------------------------------------------|----------7h5-7----------7~---|
------------------------------------------|------------------------------|
------------------------------------------|------------------------------|
------------------------------------------|------------------------------|


Here end of solo and begin singing with a hall:
--6h5---------------------------|----------------------|-----------------------|
------6h5-----------------------|----------------------|-----------------------|
----------7h5-7h5h0-x-x-x-x-----|--7------9------10----|--12------10------9----|
--------------------------------|----------------------|-----------------------|
--------------------------------|----------------------|-----------------------|
--------------------------------|----------------------|-----------------------|

---------------------|-------------------||-----------------------|
---------------------|-------------------||-----------------------|
--5------7------9----|--7----------------||*--7------9------10----|
---------------------|-------------------||*----------------------|
---------------------|-------------------||-----------------------|
---------------------|-------------------||-----------------------|

-----------------------|---------------------|--------------------||
-----------------------|---------------------|--------------------||
--12------10------9----|--5------7------9----|--7----------------*||
-----------------------|---------------------|-------------------*||
-----------------------|---------------------|--------------------||
-----------------------|---------------------|--------------------||


                                        9x
------------------||--------------------||------------------|------------------|
------------------||--------------------||------------------|------------------|
------------------||*------------------*||------------------|------------------|
------------------||*------------------*||------------------|------------------|
------------------||--------------------||------------------|------------------|
------------------||--------------------||------------------|------------------|


                                                         Bridge after solo:
------------------|------------------|------------------|--------------------|
------------------|------------------|------------------|--------------------|
------------------|------------------|------------------|--------------------|
------------------|------------------|------------------|--------------------|
------------------|------------------|------------------|--------------------|
------------------|------------------|------------------|--3------5----------|

--------------------|--------------------|---------------------|
--------------------|--------------------|---------------------|
--------------------|--------------------|---------------------|
--------------------|--------------------|---------------------|
--------------------|--5------7----------|--8------10----------|
--6------8----------|--------------------|---------------------|

-------------------|------------------|------------------|------------------|
--3----------------|------------------|------------------|------------------|
--2----------------|------------------|------------------|------------------|
--0----------------|------------------|------------------|------------------|
-------------------|------------------|------------------|------------------|
-------------------|------------------|------------------|------------------|


Chorus:
--------------------|--------------------|--------------------|
--------------------|--------------------|--------------------|
--------------------|--------------------|--------------------|
--------------------|--------------------|--------------------|
---------8b---------|--5-----------------|---------8b---------|
--5-----------------|---------5----------|--5-----------------|


                    Interlude:
-------------------|---------------------|---------------------|
-------------------|---------------------|---------------------|
-------------------|--7--------3--3------|----5--5----7--------|
--5----------------|--7--------3--3------|----5--5----7--------|
-------------------|--5--------1--1------|----3--3----5--------|
-------------------|---------------------|---------------------|


                                              Outro melody:
----------------------|----------------------|--------------------------|
----------------------|----------------------|--------------------------|
--7--------3--3----5--|--5----7--7-----------|--------------------------|
--7--------3--3----5--|--5----7--7-----------|-----------2--3-----2--3--|
--5--------1--1----3--|--3----5--5-----------|--5--4--5--------5--------|
----------------------|-------------------5--|--------------------------|

----------------------------------------|----------------------------|
----------------------------------------|----------------------------|
--------------2h3h2h3h2h3h2h3h2h3h2-2/3-|--3-----5--3--3/2-----------|
--5--2--3--5----------------------------|-----5-------------5--3--2--|
----------------------------------------|----------------------------|
----------------------------------------|----------------------------|


                        Verse 4:
-----------------------|--------------------------|--------------------------|
-----------------------|--3--------3--------------|--1--------3--------------|
-----------------------|--2--------3--------------|--0--------2--------------|
--3-----2--------------|-----0--0-----0--0--0--0--|-----0--0-----0--0--0--0--|
-----5-----4--5--------|--------------------------|--------------------------|
-----------------------|--------------------------|--------------------------|

--------------------------|--------------------------|
--3--------3-----------1--|--1-----3--3--------------|
--2--------3-----------0--|--0-----2--2--------------|
-----0--0-----0--0--0-----|-----0--------0--0--0--0--|
--------------------------|--------------------------|
--------------------------|--------------------------|

--------------------------|--------------------------|
--3--------3--------------|--1--------3--------------|
--2--------3--------------|--0--------2--------------|
-----0--0-----0--0--0--0--|-----0--0-----0--0--0--0--|
--------------------------|--------------------------|
--------------------------|--------------------------|

--------------------------|--------------------------|
--3--------3-----------1--|--1-----3--3--------------|
--2--------3-----------0--|--0-----2--2--------------|
-----0--0-----0--0--0-----|-----0--------0--0--0-----|
--------------------------|--------------------------|
--------------------------|-----------------------5--|


Again outro melody
--------------------------|--------------------------|
--------------------------|--------------------------|
--------------------------|--------------2-------2/3-|
-----------2--3-----2--3--|--5--2--3--5--------------|
--5--4--5--------5--------|--------------------------|
--------------------------|--------------------------|

----------------------------|------------------------|
----------------------------|------------------------|
--3-----5--3--3/2-----------|------------------------|
-----5-------------5--3--2--|--3-----2---------------|
----------------------------|-----5-----4--5---------|
----------------------------|---------------------5--|

--------------------------|--------------------------|
--------------------------|--------------------------|
--------------------------|--------------2-------2/3-|
-----------2--3-----2--3--|--5--2--3--5--------------|
--5--4--5--------5--------|--------------------------|
--------------------------|--------------------------|

----------------------------|------------------------|
----------------------------|------------------------|
--3-----5--3--3/2-----------|------------------------|
-----5-------------5--3--2--|--3-----2---------------|
----------------------------|-----5-----4--5---------|
----------------------------|---------------------5--|

|---------------------------|--------------------------|
|---------------------------|--------------------------|
|*--------------------------|--------------2-------2/3-|
|*-----------2--3-----2--3--|--5--2--3--5--------------|
|---5--4--5--------5--------|--------------------------|
|---------------------------|--------------------------|


                                                     Again singing with a hall
----------------------------|-------------------------||------------------|
----------------------------|-------------------------||------------------|
--3-----5--3--3/2-----------|------------------------*||------------------|
-----5-------------5--3--2--|--3-----2---------------*||------------------|
----------------------------|-----5-----4--5----------||------------------|
----------------------------|---------------------5---||------------------|

------------------|------------------|------------------||-------------------|
------------------|------------------|------------------||-------------------|
------------------|------------------|------------------||*------------------|
------------------|------------------|------------------||*------------------|
------------------|------------------|------------------||-------------------|
------------------|------------------|------------------||-------------------|

------------------|-------------------||------------------|------------------|
------------------|-------------------||------------------|------------------|
------------------|------------------*||------------------|------------------|
------------------|------------------*||------------------|------------------|
------------------|-------------------||------------------|------------------|
------------------|-------------------||------------------|------------------|


 End riff:
|---------------------------|-----------------------|-----------------------|
|---------------------------|-----------------------|-----------------------|
|*--------------------------|--------------7--------|--9--------------------|
|*--------------------------|--------------7--------|--9--------9--9----5-5-|
|------------4--5-----4--5--|--7--4--5-----5--------|--7--------9--9----5-5-|
|---7--6--7--------7--------|-----------7-----------|-----------7--7----3-3-|


                             End outro melody:
---------------------------||--------------------------|
---------------------------||--------------------------|
------------4-4-4---------*||--------------------------|
--5--4-4-4--4-4-4---------*||-----------2--3-----2--3--|
--5--4-4-4--2-2-2----------||--5--4--5--------5--------|
--3--2-2-2-----------5-----||--------------------------|

--------------------------|----------------------------|
--------------------------|----------------------------|
--------------2-------2/3-|--3-----5--3--3/2-----------|
--5--2--3--5--------------|-----5-------------5--3--2--|
--------------------------|----------------------------|
--------------------------|----------------------------|

------------------------|--------------------------|
------------------------|--------------------------|
------------------------|--------------------------|
--3-----2---------------|-----------2--3-----2--3--|
-----5-----4--5---------|--5--4--5--------5--------|
-------------------5----|--------------------------|

-------------------------------|------------------------------|
-------------------------------|------------------------------|
--------------2----------------|--2/3-3-----------5-----3-----|
--5--2--3--5-------------------|------------5-----------------|
-------------------------------|------------------------------|
-------------------------------|------------------------------|

---------------------------|--------------------|--------------------|
---------------------------|--------------------|--------------------|
--3/2----------------------|--------------------|--------------------|
---------5-----3-----2-----|--3-----------------|--2-----------------|
---------------------------|-----------5--------|-----------4--------|
---------------------------|--------------------|--------------------|

---------------------------|-------------------|------------------|
---------------------------|-------------------|------------------|
---------------------------|--7----------------|------------------|
---------------------------|--7----------------|------------------|
--4h5h4h5h4h5h4h5-4--------|--5----------------|------------------|
---------------------------|-------------------|------------------|

------------------|-------------------||
------------------|-------------------||
------------------|-------------------||
------------------|-------------------||
------------------|-------------------||
------------------|--0----------------||


Текст, аккорды и табулатура для песни "Princess Of The Dawn", исполняет "Accept".
Используемые в песне аккорды можно найти в разделе Как брать аккорды. Аккорды для шестиструнной гитары. Другие песни можно найти на нашем сайте, воспользовавшись алфавитным указателем вверху страницы.


 
Ошибка в тексте? Выделите ошибку и нажмите Ctrl+Enter