Intro.
e|-3------------5--3-3-3--3p2---2-------------------------------------------|
B|-3------------3--3-3-3------3-3-------------------------------------------|
G|-0-0-0-0-0-0--0--0-0-0--------2----------------2--------------------------|
D|------------------------------0--0-3b--p0--3/4---3b---p0------------------|
A|--------------------------------------------------------------------------|
E|--------------------------------------------------------------------------|

e|-3------------5--3-3-3--3p2---2-------------------------------------------|
B|-3------------3--3-3-3------3-3-------------------------------------------|
G|-0-0-0-0-0-0--0--0-0-0--------2-------------------------------------------|
D|------------------------------0-------------------------------------------|
A|--------------------------------------------------------------------------|
E|--------------------------------------------------------------------------|


  Verse. 
e|-3----------------2--3-3--2--3--2--3--------------------------------------|
B|-3--1-1--0--1--0--3—-3-3--3--3--3--3--------------------------------------|
G|-0--0-0--0--0--0--2--0-0--2--0--2--0--------------------------------------|
D|-0--2-2--0--2--0--0--0-0--0--0--0--0--------------------------------------|
A|----3-3-----3-------------------------------------------------------------|
E|-3-------------------3-3-----3-----3--------------------------------------|

  Chorus.

e|-----3--------------------------------------------------------------------|
B|-----3---------------3------3-------3-------------3---------3-------------|
G|-----0------------0--------0--------2-----------0---------0---------------|
D|-----0----------------------------0--0------------------------------------|
A|----------0--2--3------2-------------0--0--2--3--------2------------------|
E|--3--3--------------------------------------------------------------------|

e|-----3----------------------------2-2----3-3----2-2-2-2-2-----------------|
B|-----3---------------3-----3------3-3----3-3----3-3-3-3-3-----------------|
G|-----0------------0-------0-------2-2----2-2----2-2-2-2-2-----------------|
D|-----0----------------------------0-0----0-0----0-0-0-0-0-----------------| 
A|----------0--2--3------2--------------------------------------------------|
E|--3--3--------------------------------------------------------------------|


  Solo.

e|---- 3--------------------------------------------------------------------|
B|--------3--6--------------------------------3b-------3b---------6-6-------|
G|--5b----------5b--5rb--3--------------------3b-------3b---5/7--------7/9--|
D|-------------------------5----5--3--------------5-5-----------------------|
A|---------------------------5--------5--3--1-------------------------------|
E|--------------------------------------------------------------------------|

e|--------------------------------------------------------15----------------|
B|-----------------15--------------------------------18b------15—18---------|
G|---------12-14b-----14b—14rb--16b--16--12------12-------------------17b---|
D|--12/14------------------------------------14-----------------------------|
A|--------------------------------------------------------------------------|
E|--------------------------------------------------------------------------|





e|------------------------------------------------------------------18b—18b-|
B|--------------17------18------18-------------------17---------------------|
G|-17rb--15-----17—-17b----17b-----17b—17rb—15-------17—15-------15---------|
D|-----------17----------------------------------17----------17-------------|
A|--------------------------------------------------------------------------|
E|--------------------------------------------------------------------------|

e|-17b--15--17----15-----15---------------------------15-----15—17b-17rb-15-|
B|-------------17----18b----18------------------15/17----17-----------------|
G|------------------------------17b—17rb-15--17-----------------------------|
D|--------------------------------------------------------------------------|
A|--------------------------------------------------------------------------|
E|--------------------------------------------------------------------------|


 Outro.

e|-----3--------------------------------------------------------------------|
B|-----3---------------3------3-------3-------------3---------3-------------|
G|-----0------------0--------0--------2-----------0---------0---------------|
D|-----0----------------------------0--0------------------------------------|
A|----------0--2--3------2-------------0--0--2--3--------2------------------|
E|--3--3--------------------------------------------------------------------|

e|-----3----------------------------2-2----3-3----2-2-2-2-2-----3-----------|
B|-----3---------------3-----3------3-3----3-3----3-3-3-3-3-----3-----------|
G|-----0------------0-------0-------2-2----2-2----2-2-2-2-2-----0-----------|
D|-----0----------------------------0-0----0-0----0-0-0-0-0-----0-----------| 
A|----------0--2--3------2--------------------------------------------------|
E|--3--3--------------------------------------------------------3-----------|
(this last bit isn't quite right but makes the song sound more 'finished' when being played live)


Slide: /
Bend up: b
Release bend: rb
Pull off: p
Hammer on: h


Текст, аккорды и табулатура для песни "You Shook Me All Night Long (ver 8)", исполняет "Ac Dc".
Используемые в песне аккорды можно найти в разделе Как брать аккорды. Аккорды для шестиструнной гитары. Другие песни можно найти на нашем сайте, воспользовавшись алфавитным указателем вверху страницы.


 
Ошибка в тексте? Выделите ошибку и нажмите Ctrl+Enter