Auther/Artist:AC/DC(Chuck Berry)
Title:School Days
Album:T.N.T.
Transcribed by:Justin Harmon
Email:[email protected]


Intro:
Malcom
E----------------------------------------
B----------------------------------------
G-----2-----2---------2-----2------------
D-0h2----4--2--4--0h2----4--2--4---------
A-0------0--0--0--0------0--0--0---------
E----------------------------------------

Angus
E------5--5----------------
B------5--5----------------
G--5h6---------------------
D--------------------------
A--------------------------
E--------------------------

End of intro
E------------------------------
B---5-----5-----5-----5----5---
G-5---5-5---5-5---5-5---5--5---
D------------------------------
A------------------------------
E------------------------------

Verse/Chorus:
Repeat 4 times
E------------------------
B------------------------
G------------------------
D-2--4--5--4--0h2--------
A-0--0--0--0--0----------
E------------------------

Repeat 2 times
E---------------------------
B---------------------------
G-2--4--5--4--0h2-----------
D-0--0--0--0--0-------------
A---------------------------
E---------------------------

Repeat 2 times
E------------------------
B------------------------
G------------------------
D-2--4--5--4--0h2--------
A-0--0--0--0--0----------
E------------------------

Repeat 2 times
E-----------------------
B-----------------------
G-----------------------
D-----------------------
A-2--4--4--4--0h2-------
E-0--0--0--0--0---------

play once
E----------------------
B----------------------
G----------------------
D-2--4--5--4--2--------
A-0--0--0--0--0--------
E----------------------


Solo 1 (played over verse/chorus)
Repeat 6 times
E-5--5--5--5-------5------------
B-5--5--5--5-------5------------
G------------7-5h6--------------
D-------------------------------
A-------------------------------
E-------------------------------

2nd part of solo 1
Repeat 26 times
E----5-------------------
B----5-------------------
G-7b---------------------
D------------------------
A------------------------
E------------------------

End of solo
E------0---------------------
B----5---8b--8p5-------------
G-7b--------------7b-5-------
D----------------------7-7---
A----------------------------
E----------------------------


Текст, аккорды и табулатура для песни "School Days", исполняет "Ac Dc".
Используемые в песне аккорды можно найти в разделе Как брать аккорды. Аккорды для шестиструнной гитары. Другие песни можно найти на нашем сайте, воспользовавшись алфавитным указателем вверху страницы.


Слушать онлайн School Days


Chrome Dreams - Audio Seri...School Days на Яндекс.Музыке


 
Ошибка в тексте? Выделите ошибку и нажмите Ctrl+Enter