#----------------------------------PLEASE NOTE--------------------------------#
#This file is the author's own work and represents their interpretation of the#
#song. You may only use this file for private study, scholarship, or research.#
#-----------------------------------------------------------------------------#
#-- File created with Instab - http://www.pconline.com/~smcarey/instab.html --#
#-----------------------------------------------------------------------------#


Author/Artist: A perfect Circle
Title: Wake the dead
Album: ???
Transcribed by: Wang Jen Yu
Email: [email protected]


Here is the violin solo, transcripted for guitar. Please e-mail me for any commets
or corrections.

                              Wake the Dead
                              (violin Solo)

0:35                      0:48                 1:04
-22^^^^^^^^^^22b23^^-19--|--------------------|-------------------------------|
-------------------------|--19b19b19b19b------|--12-1215---1012-------------|
-------------------------|--------------------|-------------------------------|
-------------------------|--------------------|-------------------------------|
-------------------------|--------------------|-------------------------------|
-------------------------|--------------------|-------------------------------|

                                    1:21
-----------------------------------|------------------------------------------|
-10--1213/12----1215--17/15-12---|-----12b12b12b----------------------------|
-----------------------------------|------------------------------------------|
-----------------------------------|------------------------------------------|
-----------------------------------|------------------------------------------|
-----------------------------------|------------------------------------------|

1:33
-19b19--------------|------17-19-19b19--1922-22--|--22b24b22-19--------------|
-------17-12-12b12--|--12-------------------------|---------------------------|
--------------------|-----------------------------|---------------------------|
--------------------|-----------------------------|---------------------------|
--------------------|-----------------------------|---------------------------|
--------------------|-----------------------------|---------------------------|


-1920/19---------------------------|----------------------|------------------|
----------17--1213/12--------------|----------------------|--1213/1213/12--|
------------------------12----------|----------------------|------------------|
----------------------------910/9--|------910/9-9b9b9b---|------------------|
------------------------------------|----------------------|------------------|
------------------------------------|----------------------|------------------|

1:55                      2:10                                2:30
----12-14-19-14-17-17^^^^|----------------|------------------|----------------|
-12----------------------|--19b19b19-19-17|--12b12/8h10p8-12-|-7-78-810-----|
-------------------------|----------------|------------------|----------------|
-------------------------|----------------|------------------|----------------|
-------------------------|----------------|------------------|----------------|
-------------------------|----------------|------------------|----------------|

                       2:34
----------------------|---19b19-------14b14-----------------------------------|
-1012-12--12b12b12b--|---------17----------12------12b12b12b-----------------|
----------------------|-------------------------------------------------------|
----------------------|-------------------------------------------------------|
----------------------|-------------------------------------------------------|
----------------------|-------------------------------------------------------|

2:38
---------22-22-21b24-21-------------22-22---22-20-19--------------------------|
------------------------------------------------------------------------------|
---19-19---------------------19-19--------------------------------------------|
------------------------------------------------------------------------------|
------------------------------------------------------------------------------|
------------------------------------------------------------------------------|

         2:57
-20-19--|---------------------------------------------------------------------|
--------|---------------------------------------------------------------------|
--------|--9-910/9-9^^^^^^^-912---1214-------------------------------------|
--------|---------------------------------------------------------------------|
--------|---------------------------------------------------------------------|
--------|---------------------------------------------------------------------|


Текст, аккорды и табулатура для песни "Wake The Dead", исполняет "A Perfect Circle".
Используемые в песне аккорды можно найти в разделе Как брать аккорды. Аккорды для шестиструнной гитары. Другие песни можно найти на нашем сайте, воспользовавшись алфавитным указателем вверху страницы.


 
Ошибка в тексте? Выделите ошибку и нажмите Ctrl+Enter