Thomas-A Perfect Circle
Mer De Noms

C# F# B E G# C#


Intro: (Guitar in standard EADGBE)

acoustic, slowly

e-----------------------------------------------------------------
b-5-----5-----4-----4-----4------0-----------0-----------0--------
g---6-----6-----6-----6-----6------6---6-------6---6-------6------
d-----6-----6-----5-----5-----5------6---6-------6---6-------65/6
a-4-----4-----4-----4-----4---------------------------------------
e--------------------------------5---------5-5---------x-5--------

e---------------------------9------------9-------------------9----
b-5-----5-----4-----4-----4--------0-----------0-----------0------
g---6-----6-----6-----6--------------6-----------6---6-----6------
d-----6-----6-----5-----5-----5--------6---6-------6---6---6---6--
a-4-----4-----4-----4-----4--------------------------------x------
e-------------------------------/5-5---------5-5---------5-5------

Half Time Feel (C# Gtr)

x3
e-----------------------------------------------------------------
b-----------------------------------------------------------------
g-----------------------------------------------------------------
d-2----2--5--5--(5)/12-----12----(12)------8---8------------------
a-2----2--5--5--(5)/12-----12----(12)------8---8------------------
e-0----0--3--3--(3)/10-----10----(10)------6---6----0-0-----------

then
e-----------------------------------------------------------------
b-----------------------------------------------------------------
g-----------------------------------------------------------------
d-2----2--5--5--(5)/12-----12----(12)------8---8---8--------------
a-2----2--5--5--(5)/12-----12----(12)------8---8---8--------------
e-0----0--3--3--(3)/10-----10----(10)------6---6---6--------------

Verse: ...Humble and helpless...

e-----------------------------------------------------------------
b-----------------------------------------------------------------
g-----------------------------------------------------------------
d10------------------------------------------------12---12--12-x-x
a10------------------------------------------------12---12--12-x-x
e-8-8-8-8-8-8-8-8-8-8-8-8-8-8-8-8-8-8-8-8--8--8-10-10---10--10-x-x

e-----------------------------------------------------------------
b-----------------------------------------------------------------
g-----------------------------------------------------------------
d10------------------------------------------------12---12--12-12-
a10------------------------------------------------12---12--12-12-
e-8-8-8-8-8-8-8-8-8-8-8-8-8-8-8-8-8-8-8-8--8--8-10-10---10--10-10-

Chorus:

e--------------------7--------------------------------------------
b--------------------7--------------------------------------------
g---7-7-911-9--------9--------------------------------------------
d---x-x-x-x-x-2------9----------5-(5)/12---12-(12)8-8---2--------
a---5-5-7-9-7-2------7----------5-(5)/12---12-(12)8-8---2--------
e-------------0------0------0-0-3-(3)/10---10-(10)6-6-0-0--------

e-----------------------------------------------------------------
b-----------------------------------------------------------------
g-----------------------------------------------------------------
d---2-------------5--(5)/12----12-(12)8--8-----2-----------------
a---2-------------5--(5)/12----12-(12)8--8-----2-----------------
e---0---------0-0-3--(3)/10----10-(10)6--6--0--0-----------------

fuck, i just got lost in the tab.....some of these lines repeat
fuck, anyway here’s the bridge.....i really shouldn’t make these tabs fried.......lolz.

Bridge: ...Illuminate......

Gtr 1.

e-----------------------------------------------------------------
b-----------------------------------------------------------------
g-5--------5/7------------------5--------5/7----------------------
d-5--------5/7--2----2------2---5--------5/7--2----2-------2--2---
a-3---3-3--3/5--2----2------2---3---3-3--3/5--2----2-------2--2---
e---------------0----0------0-----------------0----0-------0--0---

Gtr 2.

e-----------------------------------------------------------------
b-/8--8p7-7-----7---7----------/8--8p7-7-----------7--------------
g-----------9-9---9---9-7-9-9-7----------9-9~~~~-9---9-7-9-9-9-9-7
d-----------------------------------------------------------------
a-----------------------------------------------------------------
e-----------------------------------------------------------------

Interlude: (guitar in standard EADGBE)

e-----------------------------------------------------------------
b-5-----5-----5------4-----4-----4--------------------------------
g---6-----6------------6-----6---------6---6-----6---6-------6----
d-----6-----6----4h5-----5-----5-----6---6---6-6---6---6---6---6--
a-4-----4-----4------4-----4-----4--------------------------------
e----------------------------------5-5---------5---------5-5-----4

e-----------------------------------------------------------------
b-5-----5-----5p4-4-----4-----4-----------------------------------
g---6-----6---------6-----6-----------6---6-------6---6-------6---
d-----6-----6---------5-----5-------6---6---6---6---6---6---6---6-
a-4-----4-----4-4-4-----4-----4-----------------------------------
e-------------------------------4/5-5---------5-5---------5-5-----

Interlude: C# Gtr

e-----------------------------------------------------------------
b-----------------------------------------------------------------
g-----------------------------------------------------------------
d-----------------------------------------------------------------
a-----------------------------------------------------------------
e-3p0-0-3p0-0-3p0-0-3p0-0-3p-0-0-3p0-0-3p0-0-3p0-0-3p0-0-/5--0-0--

e-----------------------------------------------------------------
b-----------------------------------------------------------------
g-----------------------------------------------------------------
d-----------------------------------------------------------------
a-----------------------------------------------------------------
e-3p0-0-3p0-0-3p0-0-3p0-0-/5--0-0-3p0-0-3p0-0-3p0-0-3p0-0-/5--0-0-

e-----------------------------------------------------------------
b-----------------------------------------------------------------
g-----------------------------------------------------------------
d-----------------------------------------------------------------
a-----------------------------------------------------------------
e-3p0-0-3p0-0-3p0-0-3p0-0-3p-0-0-3p0-0-3p0-0-3p0-0-3p0-0-/5--0-0--

e-----------------------------------------------------------------
b-----------------------------------------------------------------
g-----------------------------------------------------------------
d-----------------------------------------------------------------
a-----------------------------------------------------------------
e-3p0-0-3p0-0-3p0-0-3p0-0-/5--0-0-3p0-0-3p0-0-3p0-0-3p0-0-/75-0--

Outro: x2

e-----------------------------------------------------------------
b-----------------------------------------------------------------
g-----------------------------------------------------------------
d-5-----5-----5-----5-----5------5-----5-----5-----5--------------
a-5-----5-----5-----5-----5------5-----5-----5-----5--------------
e-3p0-0-3p0-0-3p0-0-3p0-0-3p-0-0-3p0-0-3p0-0-3p0-0-3p0-0-/5--0-0--

e-----------------------------------------------------------------
b-----------------------------------------------------------------
g-----------------------------------------------------------------
d-5-----5-----5-----5-------------5-----5-----5-----5-------------
a-5-----5-----5-----5-------------5-----5-----5-----5-------------
e-3p0-0-3p0-0-3p0-0-3p0-0-/5--0-0-3p0-0-3p0-0-3p0-0-3p0-0-/5--0-0-

then

e-----------------------------------------------------------------
b-----------------------------------------------------------------
g-----------------------------------------------------------------
d-2---------------------------------------------------------------
a-2---------------------------------------------------------------
e-0---------------------------------------------------------------

that’ all

trevor jones
[email protected]


Текст, аккорды и табулатура для песни "Thomas", исполняет "A Perfect Circle".
Используемые в песне аккорды можно найти в разделе Как брать аккорды. Аккорды для шестиструнной гитары. Другие песни можно найти на нашем сайте, воспользовавшись алфавитным указателем вверху страницы.


 
Ошибка в тексте? Выделите ошибку и нажмите Ctrl+Enter