A Perfect Circle - The Package
Submitted By: Stand Alone ([email protected])


[email protected]---------
D|------------------------------------------------------------------------
A|-----------------------------0/2----------------------------------------
E|--1/4------------------------------------------------1/4----------------
B|--------2----2-5-2-2--------------2----2-5-2-2------------2----2-5-2-2--

G|------------------------------------------------------------------------
D|------------------------------------------------------------------------
A|---2------------------------------------------------------------------
E|------------------------------------------------------------------------
B|---------2----2-5-2-2---------------------------------------------------
             
G|------------------------------------------------------------------------
D|------------------------------------------------------------------------
A|------------------------------------------------------------------------
E|------------------------------------------------------------------------
B|-3-3-3-2------3-3-3-2------3-3-3-2-------2---2---2--------3-3-3-2-------

G|------------------------------------------------------------------------
D|------------------------------------------------------------------------
A|------------------------------------------------------------------------
E|------------------------------------------------------------------------
B|---2---2---2------3-3-3-2------2---2---2-------3-3-3-2------------------

          

G|------------------------------------------------------------------------
D|------------------------------------------------------------------------
A|-----------------------------0/2----------------------------------------
E|--1/4------------------------------------------------1/4----------------
B|--------2-2---2-5-2-2--------------2-2---2-5-2-2----------2-2---2-5-2-2-

G|------------------------------------------------------------------------
D|------------------------------------------------------------------------
A|---2------------------------------------------------------------------
E|------------------------------------------------------------------------
B|---------2-2---2-5-2-2--------------------------------------------------

G|------------------------------------------------------------------------
D|------------------------------------------------------------------------
A|------------------------------------------------------------------------
E|------------------------------------------------------------------------
B|-3-3-3-2------3-3-3-2------3-3-3-2-------2---2---2--------3-3-3-2-------

G|------------------------------------------------------------------------
D|------------------------------------------------------------------------
A|------------------------------------------------------------------------
E|------------------------------------------------------------------------
B|---2---2---2------3-3-3-2------2---2---2-------3-3-3-2------------------
           
G|------------------------------------------------------------------------
D|------------------------------------------------------------------------
A|-----------------------------0/2----------------------------------------
E|--1/4------------------------------------------------1/4----------------
B|--------2----2-5-2-2--------------2----2-5-2-2------------2----2-5-2-2--

G|------------------------------------------------------------------------
D|------------------------------------------------------------------------
A|---2------------------------------------------------------------------
E|------------------------------------------------------------------------
B|---------2----2-5-2-2---------------------------------------------------


Текст, аккорды и табулатура для песни "The Package", исполняет "A Perfect Circle".
Используемые в песне аккорды можно найти в разделе Как брать аккорды. Аккорды для шестиструнной гитары. Другие песни можно найти на нашем сайте, воспользовавшись алфавитным указателем вверху страницы.


 
Ошибка в тексте? Выделите ошибку и нажмите Ctrl+Enter