Band- A perfect circle
Song- The outsider
Album- Thirteenth Step
Tabbed by Frey Derrak  ( [email protected])

Yay I've finally resurfaced to post the complete tab. Rejoice.

00:16 - 00:38
E /-----------------|
B /-----------------|
F#/-----------------|
Db/----0------------|let ring

00:39
E /-----------------------------    E /------------------------------|
B /-----------------------------    B /------------------------------|
F#/--7 x8----3x8-----0x8----3x8-    F#/--7x8---10x8---3x8----0x8-----|
Db/-----------------------------    Db/------------------------------|

00:56
F#/----7x16---5x8---3x8---7x8---|
Db/-----------------------------|

1:15 to 1:21
Db/-------0--(let ring)

1:22 to 1:43
E /--------------------------------------------------------|
B /--------------------------------------------------------|
F#/------------8-7-------------8-7-----------8-7-10-8-7----|
Db/-00-00-00-00-----00-00-00-00---00-00-00-00--------------|

E /---------------------------------------------------------|
B /---------------------------------------------------------|
F#/------------8-7-------------8-7-----------8-7-10-8-10-12-|
Db/-00-00-00-00-----00-00-00-00---00-00-00-00---------------|

1:44 to 2:00
E /-----------------------------    E /------------------------------|
B /-----------------------------    B /------------------------------|
F#/--7 x8----3x8-----0x8----3x8-    F#/--7x8---10x8---3x8----0x8-----|
Db/-----------------------------    Db/------------------------------|

2:01 to 2:09
F#/----7x16---5x8---3x8---7x8---|
Db/-----------------------------|

2:10 to 2:19
E /---------------------------------------------------|
B /---------------------------------------------------|
F#/--7777/5555/7777/10-10-10--5-5-5/12-------0----3---|
Db/---------------------------------------0-0--0-0--0-|

2:20 to 2:55
Nothing

2:56 to 3:13
E /-----------------------------    E /------------------------------|
B /-----------------------------    B /------------------------------|
F#/--7 x8----5x10---12x8----3x10-   F#/--7x8---10x8---3x8----0x8-----|
Db/-----------------------------    Db/------------------------------|

3:14 to 3:30
Nothing

3:31 to 3:45
E /-----------------------------------------|
B /-----------------------------------------|  - Repeat
F#/-----------------------------------------|
Db/----0-0-0-3---0-0-0-3---0-0-0-3---0-0-0--|

3:46 to end
E /------------------0------12------12-----------------------|
B /----------------------------------------------------------|
F#/--0-0-0-0-3-3-3-3-----------------------0-0-0-0-3-3-3-3---|
Db/--------------------0-0-0--0-0-0------------------------0-|


Текст, аккорды и табулатура для песни "The Outsider", исполняет "A Perfect Circle".
Используемые в песне аккорды можно найти в разделе Как брать аккорды. Аккорды для шестиструнной гитары. Другие песни можно найти на нашем сайте, воспользовавшись алфавитным указателем вверху страницы.


 
Ошибка в тексте? Выделите ошибку и нажмите Ctrl+Enter