A Perfect Circle, The Hollow.
Tabbed by Neal, [email protected]
  
Tabbed by Neal ([email protected])
Tuning- C# F# B E G# C#

Intro

Gtr.2
|-----------------------------------|
|-----------------------------------|
|-----------------------------------|
|-11-11-11-119-9-9-9--4-4-4-4-2--2-|
|-11-11-11-119-9-9-9--4-4-4-4-2--2-|
|-9--9--9--9-7-7-7-7--2-2-2-2-0--0-|
palm mute              * *
|-----------------------------------|
|-----------------------------------|
|-----------------------------------|
|-11-11-11-119-9-9-9--4-4-2-2-9--9-|
|-11-11-11-119-9-9-9--4-4-2-2-9--9-|
|-9--9--9--9-7-7-7-7--2-2-0-0-7--7-|
palm mute              * *
Gtr.1
|-------------------------------------------|
|-------------------------------------------|
|-13-13-13-13-13/16-16-16-16-16-16-16-16-16-|
|--x--x--x--x--x--x--x--x--x--x--x--x--x--x-|
|-11-11-11-11-11/14-14-14-14-14-14-14-14-14-|
|-------------------------------------------|

|------------------------------------------|
|------------------------------------------|
|-13-13-13-13-13-13-13-13-13-13/9-9-9-9-9--|
|--x--x--x--x--x--x--x--x--x--x-x-x-x-x-x--|
|-11-11-11-11-11-11-11-11-11-11/7-7-7-7-7--|
|------------------------------------------|

|---------------------------------------------|
|---------------------------------------------|
|-13-13-13-13-13/16-16-16-16-16-/18-18-16-16-|
|--x--x--x--x--x--x--x--x--x--x---x--x---x--x-|
|-11-11-11-11-11/14-14-14-14-14-/16-16-14-14-|
|---------------------------------------------|

|-------------------------------------------|
|-------------------------------------------|
|-13-13-13-13-13-13-13-13-13-13-13-13-13-13-|
|--x--x--x--x--x--x--x--x--x--x--x--x--x--x-|
|-11-11-11-11-11-11-11-11-11-11-11-11-11-11-|
|-------------------------------------------|
Verse(i dont think this is exact, but it’ll do)
|-------------------------------------------|
|--------------------17h19p17---------------|
|--------------16-18----------18-16---------|
|-11-11--16-18---------------------18-16----|
|-11-11-------------------------------------|
|-9--9--------------------------------------|
*They use some sort of pedal (if you have a whammy, try setting it to harmonize down a second...it sounds kinda like it)

Chorus
guitar 2:
|---------------------------------|
|---------------------------------|
|---------------------------------|
|-7-7-7-7-6-6-6-6-2-2-2-2-2-9-9-9-|
|-7-7-7-7-6-6-6-6-2-2-2-2-2-9-9-9-|
|-5-5-5-5-4-4-4-4-0-0-0-0-0-7-7-7-|

guitar 1:
|--16-19-16---------------------------------------------------|
|-----------16-15-16------------------------------------------|
|--------------------18-16------------------13----13-13-------|
|--------------------------18-16-13--14--16----11-------11-11-|
|-------------------------------------------------------------|
|-------------------------------------------------------------|

|--------------------------------------------------------------|
|--------------------------------------------------------------|
|-13/16-16-14---13-----13-------16--16/1814---13----13--11-11-|
|-------------------11----13h14-------------------11------9--9-|
|--------------------------------------------------------------|
|--------------------------------------------------------------|
 this whole part is delayed

Verse 2
Gtr.2
|-----------------------------------|
|-----------------------------------|
|-----------------------------------|
|-11-11-11-119-9-9-9--4-4-4-4-2--2-|
|-11-11-11-119-9-9-9--4-4-4-4-2--2-|
|-9--9--9--9-7-7-7-7--2-2-2-2-0--0-|
palm mute              * *
|-----------------------------------|
|-----------------------------------|
|-----------------------------------|
|-11-11-11-119-9-9-9--4-4-2-2-9--9-|
|-11-11-11-119-9-9-9--4-4-2-2-9--9-|
|-9--9--9--9-7-7-7-7--2-2-0-0-7--7-|
palm mute              * *
Gtr.1
|-------------------------------------------|
|--------------------17h19p17---------------|
|--------------16-18----------18-16---------|
|-11-11--16-18---------------------18-16----|
|-11-11-------------------------------------|
|-9--9--------------------------------------|
*this time no effects

Interlude

Gtr.1

|---------------------------------------------|
|---------------------------------------------|
|---------------------------------------------|
|-2--6/8-8-8-86-6-6-6--2-2/9-9-9/4-4-4-4-6---|
|---------------------------------------------|
|-0--4/6-6-6-64-4-4-4--0-0/7-7-7/2-2-2-2/4-0-|

Gtr.2

|----------------------------------------------------------------|
|--121212121212/14-14-14-14-14/16-16-16-16-16-16-16-16-16-16-16/-|
|----------------------------------------------------------------|
|---9-9-9-9-9-9/11-11-11-11-11/13-13-13-13-13-13-13-13-13-13-13/-|
|----------------------------------------------------------------|
|----------------------------------------------------------------|

|---------------------------------------------|
|19-19-19-19-19-19-19-19-19/2114-14-14-14-14-|
|---------------------------------------------|
|16-16-16-16-16-16-16-16-16/1811-11-11-11-11-|
|---------------------------------------------|
|---------------------------------------------|

Chorus 2 
Gtr.2
|---------------------------------------|
|---------------------------------------|
|---------------------------------------|
|-11-11-11-11-9-9-9-9-4-4-4-4-2-2-2-2-2-|
|-11-11-11-11-9-9-9-9-4-4-4-4-2-2-2-2-2-|
|--9--9--9--9-7-7-7-7-2-2-2-2-0-0-0-0-0-|

Gtr.1
|--------------------------------0----|
|-------14-------12-------7------0----|
|-------13-------11-------6-----------|
|-11-11-11-11-9-9-9-9-4-4-4-4-2-------|
|-11-11-11-11-9-9-9-9-4-4-4-4-2-------|
|-----------------------------0-------|



Bridge

Gtr.1

|----------------------------------------------------------------|
|----------------------------------------------------------------|
|----------------------------------------------------------------|
|-11-11-11-11-11-11/13-13-13-13-13-13/14-14-14-14-14-14--7-7-7-11|
|-11-11-11-11-11-11/13-13-13-13-13-13/14-14-14-14-14-14--7-7-7-11|
|-9--9--9--9--9--9-/11-11-11-11-11-11/12-12-12-12-12-12--5-5-5--9|
  p.m.............. p.m.............. p.m..............

Gtr.2

|-------------------------------------------------------------|
|-------------------------------------------------------------|
|18-18-18/16-16/11-11-11-11/1313131313/9-9-9/11/8-8-8/(9)/(6)-|
|-x--x--x--x--x--x--x--x--x--x-x-x-x-x-x-x-x--x-x-x-x--x---x--|
|16-16-16/14-14/ 9--9--9--9/1111111111/7-7-7/ 9/6-6-6/(7)/(4)-|
|-------------------------------------------------------------|

Chorus 3/Outro
guitar 2:
|---------------------------------|
|---------------------------------|
|---------------------------------|
|-7-7-7-7-6-6-6-6-2-2-2-2-2-9-9-9-|
|-7-7-7-7-6-6-6-6-2-2-2-2-2-9-9-9-|
|-5-5-5-5-4-4-4-4-0-0-0-0-0-7-7-7-|

guitar 1:
|--16-19-16---------------------------------------------------|
|-----------16-15-16------------------------------------------|
|--------------------18-16------------------13----13-13-------|
|--------------------------18-16-13--14--16----11-------11-11-|
|-------------------------------------------------------------|
|-------------------------------------------------------------|

|--------------------------------------------------------------|
|--------------------------------------------------------------|
|-13/16-16-14---13-----13-------16--16/1814---13----13--11-11-|
|-------------------11----13h14-------------------11------9--9-|
|--------------------------------------------------------------|
|--------------------------------------------------------------|
 this whole part is delayed
 
:: Ultimate Guitar Archive :: 
http://www.ultimate-guitar.com 



Текст, аккорды и табулатура для песни "The Hollow", исполняет "A Perfect Circle".
Используемые в песне аккорды можно найти в разделе Как брать аккорды. Аккорды для шестиструнной гитары. Другие песни можно найти на нашем сайте, воспользовавшись алфавитным указателем вверху страницы.


 
Ошибка в тексте? Выделите ошибку и нажмите Ctrl+Enter