Artist- A Perfect Circle
Song- Orestes
Tab- By Jonathan Bissonnette

Tuning- C# F# B E G# C#

Intro/Verse

w/Chorus pedal
|--------------3---3-----|
|-----3-----3----3---3---|
|---4-----4--------2---2-|
|-2-----2----------------|
|------------------------|
|------------------------| x10

Chorus

|------------------------------------------------|
|-----3---3--------3---3-------3---3-------3---3-|
|---4---4--------4---4-------4---4-------4---4---|
|-2---2------------------------------------------|
|--------------5---5-------3----3------3----3----|
|------------------------------------------------|

Verse 2- Same as Verse 1 x4

Bridge

|-------------------------------------------------|
|-16-15-13/12-12--15-15/12/10-10-10-10-10-10/8-8--|
|-------------------------------------------------|
|-------------------------------------------------|
|-------------------------------------------------|
|-------------------------------------------------|

Interlude

|-------------------------|
|-------------------------|
|-9-9-9-9-9-9/5-5-5-5-5-5-|
|-9-9-9-9-9-9/5-5-5-5-5-5-|
|-7-7-7-7-7-7/3-3-3-3-3-3-|
|-------------------------| x4

Gtr.1

|-------------------------------------------------|
|-------------------------------------------------|
|-9-9-9-9-9-9/7-7-7-7-7-7/5-5-5-5-5-5-5-5-5-5-5-5-|
|-9-9-9-9-9-9/7-7-7-7-7-7/5-5-5-5-5-5-5-5-5-5-5-5-|
|-7-7-7-7-7-7/5-5-5-5-5-5/3-3-3-3-3-3-3-3-3-3-3-3-|
|-------------------------------------------------| x4

Gtr.2

|-----------------------------------|
|-----5-----------------------------|
|-2h4---4-4p2--0-------0------0-0-2-|
|----------------2-2h4---4-2--------|
|-----------------------------------|
|-----------------------------------|

|-----------------------------------|
|-----5-----------------------------|
|-2h4---4-4p2--0-------0------0-0---|
|----------------2-2h4---4-2--------|
|-----------------------------------|
|-----------------------------------|

|-------------------------------|
|-----5-------------------------|
|-2h4---4-4p2--0-------0------0-|
|----------------2-2h4---4-2----|
|-------------------------------|
|-------------------------------|

|-------------------------------------------|
|-------------------------------------------|
|-------------------------------------------|
|--2-2-2-2p0-0-0-0--------------------------|
|-------------------4-4-4-4p2-2-2-2p0-------|
|-------------------------------------------|
|-------------------------------------------|

Before solo

w/chorus pedal
|--------------3---3-----|
|-----3-----3----3---3---|
|---4-----4--------2---2-|
|-2-----2----------------|
|------------------------|
|------------------------|

Solo

w/delay
|--------------------------------------|
|--------------------------------------|
|-/19-19-19h21-21/16-16-16h17p16h17p16-|
|--------------------------------------|
|--------------------------------------|
|--------------------------------------|

|----------------------------------------|
|----------------------------------------|
|-/19-19-19h21-21--21-21-21^-21^-21^-21^-|
|----------------------------------------|
|----------------------------------------|
|----------------------------------------|
                         grad. bend up

|--------------------------------------|
|--------------------------------------|
|-/19-19-19h21-21/16-16-16h17p16h17p16-|
|--------------------------------------|
|--------------------------------------|
|--------------------------------------|


|------------|
|------------|
|16~/14-14~--|
|------------|
|------------|
|------------|

Second Part

|---------------------------------|
|---------------------------------|
|-/12-12-12h14-14/9-9-9h10p9h10p9-|
|---------------------------------|
|---------------------------------|
|---------------------------------|

|-----------------------------------------|
|-----------------------------------------|
|-/12-12-12h14-14--14-14-14^-14^-14^-14^--|
|-----------------------------------------|
|-----------------------------------------|
|-----------------------------------------|
                         grad. bend up

|---------------------------------|
|---------------------------------|
|-/12-12-12h14-14/9-9-9h10p9h10p9-|
|---------------------------------|
|---------------------------------|
|---------------------------------|

|---------|
|---------|
|-9~/7-7~-|
|---------|
|---------|
|---------|

After solo

|-------|
|-------|
|-------|
|-6-7-9-|
|-6-7-9-|
|-4-5-7-|

Chorus 2

Gtr.1

|-------------------------------------------------|
|-------------------------------------------------|
|-9-9-9-9-9-9/7-7-7-7-7-7/5-5-5-5-5-5-5-5-5-5-5-5-|
|-9-9-9-9-9-9/7-7-7-7-7-7/5-5-5-5-5-5-5-5-5-5-5-5-|
|-7-7-7-7-7-7/5-5-5-5-5-5/3-3-3-3-3-3-3-3-3-3-3-3-|
|-------------------------------------------------| x4

Gtr.2 fill In

|-----------------------------------------------|
|-----------------------------------------------|
|---9^~~~----14~~~--7/9~-9-9-9-9--9h10p9h10p9/7-|
|-----------------------------------------------|
|-----------------------------------------------|
|-----------------------------------------------|
Listen for the timing

Outro

Gtr.1

|-------------------------------------------------|
|-------------------------------------------------|
|-9-9-9-9-9-9/7-7-7-7-7-7/5-5-5-5-5-5-5-5-5-5-5-5-|
|-9-9-9-9-9-9/7-7-7-7-7-7/5-5-5-5-5-5-5-5-5-5-5-5-|
|-7-7-7-7-7-7/5-5-5-5-5-5/3-3-3-3-3-3-3-3-3-3-3-3-|
|-------------------------------------------------| x2

Gtr.2

|-----------------------------------|
|-----5-----------------------------|
|-2h4---4-4p2--0-------0------0-0-2-|
|----------------2-2h4---4-2--------|
|-----------------------------------|
|-----------------------------------|

|-----------------------------------|
|-----5-----------------------------|
|-2h4---4-4p2--0-------0------0-0---|
|----------------2-2h4---4-2--------|
|-----------------------------------|
|-----------------------------------|

|-------------------------------|
|-----5-------------------------|
|-2h4---4-4p2--0-------0------0-|
|----------------2-2h4---4-2----|
|-------------------------------|
|-------------------------------|

|-------------------------------------------|
|-------------------------------------------|
|-------------------------------------------|
|--2-2-2-2p0-0-0-0--------------------------|
|-------------------4-4-4-4p2-2-2-2p0-------|
|-------------------------------------------|
|-------------------------------------------|

End

|----|
|----|
|-9^-|
|-9^-|
|-7^-|
|----|
Bend down

Email me if you think this is wrong! [email protected]


Текст, аккорды и табулатура для песни "Orestes", исполняет "A Perfect Circle".
Используемые в песне аккорды можно найти в разделе Как брать аккорды. Аккорды для шестиструнной гитары. Другие песни можно найти на нашем сайте, воспользовавшись алфавитным указателем вверху страницы.


 
Ошибка в тексте? Выделите ошибку и нажмите Ctrl+Enter