A Perfect Circle - Three Libras.
 Tabbed by Kevin Wallace, [email protected]
  
A Perfect Circle - Three Libras
(transcribed by [email protected])

Tune all six strings down two frets (D tuning)

/ - slide up
 - slide down


Intro:

e--------------------------------------------------
B-3------3--3------3---3-----3-/--7-----7---------
G----0--------0----------0-----/----0-------------
D------------------------------/------------------
A-3----3----3----3-----3---3---/--7---7-----------
E--------------------------------------------------

e--------------------------------------------------
B-3------3---3-----3--/--10--------10----7------7-
G----0---------0------/------0--------------0-----
D---------------------/---------------------------
A-3----3-----3---3----/--10-----10-------7----7---
E--------------------------------------------------

e--------------------------------------------------
B-3------3--3------3---3-----3-/--7-----7---------
G----0--------0----------0-----/----0-------------
D------------------------------/------------------
A-3----3----3----3-----3---3---/--7---7-----------
E--------------------------------------------------

e--------------------------------------------------
B-3------3---3-----3--/--10--------10----7------7-
G----0---------0------/------0--------------0-----
D---------------------/---------------------------
A-3----3-----3---3----/--10-----10-------7----7---
E--------------------------------------------------

e--------------------------------------------------
B-8------8---8-----8----8------8---8---------------
G----0---------0----------0--------0---------------
D----------------------------------7---------------
A-8----8-----8---8------8----8-----8---------------
E--------------------------------------------------


Verse:

e--------------------------------------------------
B-3------3--3------3---5-----5----6------6---------
G----0--------0----------0----------0--------------
D--------------------------------------------------
A-3----3---------------5---5-----------------------
E-----------3----3----------------6----6-----------
  Threw       you the  obvious      and you ...
Play this four times and add this after the last one:

e---------------
B--7-------7----
G-----0---------
D---------------
A--7-----7------
E---------------


Prechorus:

e----------------------------------------------------------
B-3------3---3--------3----3----------3--/--10--------10---
G----0-----------0----------------0------/------0----------
D----------------------------------------/-----------------
A-3----3-----3------3------3--------3----/--10-----10------
E----------------------------------------------------------
  Difficult  not to feel a little bit...        disa...
e----------------------------------------------------
B-7------7---7-----7------7------7---7------7--------
G----0---------0------------0-----------0------------
D----------------------------------------------------
A-7----7-----7---7--------7---7------7----7----------
E----------------------------------------------------
..pointed      and passed over...
e--------------------------------------------------
B-3------3---3-----3---3------3--/--10--------10---
G----0---------0----------0------/------0----------
D--------------------------------/-----------------
A-3----3-----3---3-----3----3----/--10-----10------
E--------------------------------------------------

e--------------------------------------------------
B-7------7---7-----7----8------8---8---------------
G----0---------0----------0--------0---------------
D----------------------------------7---------------
A-7----7-----7---7------8---8------8---------------
E--------------------------------------------------


Chorus:  ?
 
     G     Eb    Ab
e----3-----6-----4------------------------------------
B----3-----8(6)--4------------------------------------
G----4-----8-----5------------------------------------
D----5-----8-----6------------------------------------
A----5-----6-----6------------------------------------
E----3-----6-----4------------------------------------


Bridge:  ?

e----3-----5-----7------------------------------------
B----5(3)--7(5)--8(7)---------------------------------
G----5-----7-----9------------------------------------
D----5-----7-----9------------------------------------
A----3-----5-----7------------------------------------
E----3-----5-----7------------------------------------


The notes in parentheses are the ones I like to play,
instead of the ones that are probably right.  I didn't
do the rhythm, if you're trying to learn this song, you
can probably figure that part out for yourself.


Lyrics:

Threw you the obvious and you
Flew with it on your back,
A name in your recollection
Down among a million same

Difficult not to feel a little bit
Disappointed and passed over
When I've looked right through
To see you naked and oblivious
And you don't see me

But I threw you the obvious 
Just to see if there's more behind 
The eyes of a fallen angel 
Eyes of a tragedy

Here I am expecting just a little bit 
Too much from the wounded 
But I see, see through it all
See through, see you

Cause i threw you the obvious 
To see what occurs behind the 
Eyes of a fallen angel 
Eyes of a tragedy
Oh well, oh well.
Apparently nothing.
Apparently nothing at all.

You don't, you don't, you don't see me.
You don't, you don't, you don't see me.
You don't, you don't, you don't see me.
You don't, you don't, you don't see me.
You don't see me.
You don't.
You don't.
You don't see me at all.

 
:: Ultimate Guitar Archive :: 
http://www.ultimate-guitar.com 

 


Текст, аккорды и табулатура для песни "3 Libras", исполняет "A Perfect Circle".
Используемые в песне аккорды можно найти в разделе Как брать аккорды. Аккорды для шестиструнной гитары. Другие песни можно найти на нашем сайте, воспользовавшись алфавитным указателем вверху страницы.


 
Ошибка в тексте? Выделите ошибку и нажмите Ctrl+Enter